  0
SECTION
  2
HEADER
  9
$ACADVER
  1
AC1015
  9
$ACADMAINTVER
 70
     6
  9
$DWGCODEPAGE
  3
ANSI_1254
  9
$INSBASE
 10
0.0
 20
0.0
 30
0.0
  9
$EXTMIN
 10
0.0
 20
0.0
 30
0.0
  9
$EXTMAX
 10
279.4
 20
215.9
 30
0.0
  9
$LIMMIN
 10
0.0
 20
0.0
  9
$LIMMAX
 10
279.4
 20
215.9
  9
$ORTHOMODE
 70
     0
  9
$REGENMODE
 70
     1
  9
$FILLMODE
 70
     1
  9
$QTEXTMODE
 70
     0
  9
$MIRRTEXT
 70
     1
  9
$LTSCALE
 40
1.0
  9
$ATTMODE
 70
     1
  9
$TEXTSIZE
 40
3.5
  9
$TRACEWID
 40
1.0
  9
$TEXTSTYLE
  7
Standard
  9
$CLAYER
  8
0
  9
$CELTYPE
  6
ByLayer
  9
$CECOLOR
 62
   256
  9
$CELTSCALE
 40
1.0
  9
$DISPSILH
 70
     0
  9
$DIMSCALE
 40
1.0
  9
$DIMASZ
 40
3.5
  9
$DIMEXO
 40
1.0
  9
$DIMDLI
 40
3.75
  9
$DIMRND
 40
0.0
  9
$DIMDLE
 40
0.0
  9
$DIMEXE
 40
1.0
  9
$DIMTP
 40
0.0
  9
$DIMTM
 40
0.0
  9
$DIMTXT
 40
3.5
  9
$DIMCEN
 40
2.5
  9
$DIMTSZ
 40
0.0
  9
$DIMTOL
 70
     0
  9
$DIMLIM
 70
     0
  9
$DIMTIH
 70
     1
  9
$DIMTOH
 70
     1
  9
$DIMSE1
 70
     0
  9
$DIMSE2
 70
     0
  9
$DIMTAD
 70
     1
  9
$DIMZIN
 70
     0
  9
$DIMBLK
  1

  9
$DIMASO
 70
     1
  9
$DIMSHO
 70
     1
  9
$DIMPOST
  1

  9
$DIMAPOST
  1

  9
$DIMALT
 70
     0
  9
$DIMALTD
 70
     3
  9
$DIMALTF
 40
0.0393700787
  9
$DIMLFAC
 40
1.0
  9
$DIMTOFL
 70
     1
  9
$DIMTVP
 40
0.0
  9
$DIMTIX
 70
     0
  9
$DIMSOXD
 70
     0
  9
$DIMSAH
 70
     0
  9
$DIMBLK1
  1

  9
$DIMBLK2
  1

  9
$DIMSTYLE
  2
ISO-25
  9
$DIMCLRD
 70
     0
  9
$DIMCLRE
 70
     0
  9
$DIMCLRT
 70
     0
  9
$DIMTFAC
 40
1.0
  9
$DIMGAP
 40
1.524
  9
$DIMJUST
 70
     0
  9
$DIMSD1
 70
     0
  9
$DIMSD2
 70
     0
  9
$DIMTOLJ
 70
     0
  9
$DIMTZIN
 70
     0
  9
$DIMALTZ
 70
     0
  9
$DIMALTTZ
 70
     0
  9
$DIMUPT
 70
     0
  9
$DIMDEC
 70
     2
  9
$DIMTDEC
 70
     2
  9
$DIMALTU
 70
     2
  9
$DIMALTTD
 70
     3
  9
$DIMTXSTY
  7
Standard
  9
$DIMAUNIT
 70
     0
  9
$DIMADEC
 70
     2
  9
$DIMALTRND
 40
0.0
  9
$DIMAZIN
 70
     0
  9
$DIMDSEP
 70
    44
  9
$DIMATFIT
 70
     3
  9
$DIMFRAC
 70
     0
  9
$DIMLDRBLK
  1

  9
$DIMLUNIT
 70
     2
  9
$DIMLWD
 70
    -2
  9
$DIMLWE
 70
    -2
  9
$DIMTMOVE
 70
     0
  9
$LUNITS
 70
     2
  9
$LUPREC
 70
     2
  9
$SKETCHINC
 40
1.0
  9
$FILLETRAD
 40
10.0
  9
$AUNITS
 70
     0
  9
$AUPREC
 70
     2
  9
$MENU
  1
.
  9
$ELEVATION
 40
0.0
  9
$PELEVATION
 40
0.0
  9
$THICKNESS
 40
0.0
  9
$LIMCHECK
 70
     0
  9
$CHAMFERA
 40
0.0
  9
$CHAMFERB
 40
0.0
  9
$CHAMFERC
 40
0.0
  9
$CHAMFERD
 40
0.0
  9
$SKPOLY
 70
     0
  9
$TDCREATE
 40
2458985.706119329
  9
$TDUCREATE
 40
2458985.581119329
  9
$TDUPDATE
 40
2458985.70611963
  9
$TDUUPDATE
 40
2458985.58111963
  9
$TDINDWG
 40
0.0000000116
  9
$TDUSRTIMER
 40
0.0000000116
  9
$USRTIMER
 70
     1
  9
$ANGBASE
 50
0.0
  9
$ANGDIR
 70
     0
  9
$PDMODE
 70
     0
  9
$PDSIZE
 40
-1.0
  9
$PLINEWID
 40
0.0
  9
$SPLFRAME
 70
     0
  9
$SPLINETYPE
 70
     6
  9
$SPLINESEGS
 70
     8
  9
$HANDSEED
  5
F1
  9
$SURFTAB1
 70
     6
  9
$SURFTAB2
 70
     6
  9
$SURFTYPE
 70
     6
  9
$SURFU
 70
     6
  9
$SURFV
 70
     6
  9
$UCSBASE
  2

  9
$UCSNAME
  2

  9
$UCSORG
 10
0.0
 20
0.0
 30
0.0
  9
$UCSXDIR
 10
1.0
 20
0.0
 30
0.0
  9
$UCSYDIR
 10
0.0
 20
1.0
 30
0.0
  9
$UCSORTHOREF
  2

  9
$UCSORTHOVIEW
 70
     0
  9
$UCSORGTOP
 10
0.0
 20
0.0
 30
0.0
  9
$UCSORGBOTTOM
 10
0.0
 20
0.0
 30
0.0
  9
$UCSORGLEFT
 10
0.0
 20
0.0
 30
0.0
  9
$UCSORGRIGHT
 10
0.0
 20
0.0
 30
0.0
  9
$UCSORGFRONT
 10
0.0
 20
0.0
 30
0.0
  9
$UCSORGBACK
 10
0.0
 20
0.0
 30
0.0
  9
$PUCSBASE
  2

  9
$PUCSNAME
  2

  9
$PUCSORG
 10
0.0
 20
0.0
 30
0.0
  9
$PUCSXDIR
 10
1.0
 20
0.0
 30
0.0
  9
$PUCSYDIR
 10
0.0
 20
1.0
 30
0.0
  9
$PUCSORTHOREF
  2

  9
$PUCSORTHOVIEW
 70
     0
  9
$PUCSORGTOP
 10
0.0
 20
0.0
 30
0.0
  9
$PUCSORGBOTTOM
 10
0.0
 20
0.0
 30
0.0
  9
$PUCSORGLEFT
 10
0.0
 20
0.0
 30
0.0
  9
$PUCSORGRIGHT
 10
0.0
 20
0.0
 30
0.0
  9
$PUCSORGFRONT
 10
0.0
 20
0.0
 30
0.0
  9
$PUCSORGBACK
 10
0.0
 20
0.0
 30
0.0
  9
$USERI1
 70
     0
  9
$USERI2
 70
     0
  9
$USERI3
 70
     0
  9
$USERI4
 70
     0
  9
$USERI5
 70
     0
  9
$USERR1
 40
0.0
  9
$USERR2
 40
0.0
  9
$USERR3
 40
0.0
  9
$USERR4
 40
0.0
  9
$USERR5
 40
0.0
  9
$WORLDVIEW
 70
     1
  9
$SHADEDGE
 70
     3
  9
$SHADEDIF
 70
    70
  9
$TILEMODE
 70
     1
  9
$MAXACTVP
 70
    64
  9
$PINSBASE
 10
0.0
 20
0.0
 30
0.0
  9
$PLIMCHECK
 70
     0
  9
$PEXTMIN
 10
1.0000000000E+20
 20
1.0000000000E+20
 30
1.0000000000E+20
  9
$PEXTMAX
 10
-1.0000000000E+20
 20
-1.0000000000E+20
 30
-1.0000000000E+20
  9
$PLIMMIN
 10
0.0
 20
0.0
  9
$PLIMMAX
 10
420.0
 20
297.0
  9
$UNITMODE
 70
     0
  9
$VISRETAIN
 70
     1
  9
$PLINEGEN
 70
     0
  9
$PSLTSCALE
 70
     1
  9
$TREEDEPTH
 70
  3020
  9
$CMLSTYLE
  2
Standard
  9
$CMLJUST
 70
     0
  9
$CMLSCALE
 40
20.0
  9
$PROXYGRAPHICS
 70
     1
  9
$MEASUREMENT
 70
     1
  9
$CELWEIGHT
370
    -1
  9
$ENDCAPS
280
     0
  9
$JOINSTYLE
280
     0
  9
$LWDISPLAY
290
     1
  9
$INSUNITS
 70
     4
  9
$HYPERLINKBASE
  1

  9
$STYLESHEET
  1

  9
$XEDIT
290
     1
  9
$CEPSNTYPE
380
     0
  9
$PSTYLEMODE
290
     1
  9
$FINGERPRINTGUID
  2
{b43f6c29-287f-497d-9aea-cd28ae98630d}
  9
$VERSIONGUID
  2
{FAEB1C32-E019-11D5-929B-00C0DF256EC4}
  9
$EXTNAMES
290
     1
  9
$PSVPSCALE
 40
0.0
  9
$OLESTARTUP
290
     0
  0
ENDSEC
  0
SECTION
  2
CLASSES
  0
CLASS
  1
ACDBDICTIONARYWDFLT
  2
AcDbDictionaryWithDefault
  3
ObjectDBX Classes
 90
        0
280
     0
281
     0
  0
CLASS
  1
VISUALSTYLE
  2
AcDbVisualStyle
  3
ObjectDBX Classes
 90
     4095
280
     0
281
     0
  0
CLASS
  1
MATERIAL
  2
AcDbMaterial
  3
ObjectDBX Classes
 90
     1153
280
     0
281
     0
  0
CLASS
  1
SCALE
  2
AcDbScale
  3
ObjectDBX Classes
 90
     1153
280
     0
281
     0
  0
CLASS
  1
TABLESTYLE
  2
AcDbTableStyle
  3
ObjectDBX Classes
 90
     4095
280
     0
281
     0
  0
CLASS
  1
MLEADERSTYLE
  2
AcDbMLeaderStyle
  3
ACDB_MLEADERSTYLE_CLASS
 90
     4095
280
     0
281
     0
  0
CLASS
  1
SUN
  2
AcDbSun
  3
SCENEOE
 90
     1153
280
     0
281
     0
  0
CLASS
  1
ACDBPLACEHOLDER
  2
AcDbPlaceHolder
  3
ObjectDBX Classes
 90
        0
280
     0
281
     0
  0
CLASS
  1
LAYOUT
  2
AcDbLayout
  3
ObjectDBX Classes
 90
        0
280
     0
281
     0
  0
ENDSEC
  0
SECTION
  2
TABLES
  0
TABLE
  2
VPORT
  5
8
330
0
100
AcDbSymbolTable
 70
     1
  0
VPORT
  5
29
330
8
100
AcDbSymbolTableRecord
100
AcDbViewportTableRecord
  2
*Active
 70
     0
 10
0.0
 20
0.0
 11
1.0
 21
1.0
 12
139.7
 22
107.95
 13
0.0
 23
0.0
 14
10.0
 24
10.0
 15
10.0
 25
10.0
 16
0.0
 26
0.0
 36
1.0
 17
0.0
 27
0.0
 37
0.0
 40
215.9
 41
1.2941176471
 42
50.0
 43
0.0
 44
0.0
 50
0.0
 51
0.0
 71
     0
 72
  2000
 73
     1
 74
     3
 75
     0
 76
     0
 77
     0
 78
     0
281
     0
 65
     1
110
0.0
120
0.0
130
0.0
111
1.0
121
0.0
131
0.0
112
0.0
122
1.0
132
0.0
 79
     0
146
0.0
  0
ENDTAB
  0
TABLE
  2
LTYPE
  5
5
330
0
100
AcDbSymbolTable
 70
     6
  0
LTYPE
  5
14
330
5
100
AcDbSymbolTableRecord
100
AcDbLinetypeTableRecord
  2
ByBlock
 70
     0
  3

 72
    65
 73
     0
 40
0.0
  0
LTYPE
  5
15
330
5
100
AcDbSymbolTableRecord
100
AcDbLinetypeTableRecord
  2
ByLayer
 70
     0
  3

 72
    65
 73
     0
 40
0.0
  0
LTYPE
  5
16
330
5
100
AcDbSymbolTableRecord
100
AcDbLinetypeTableRecord
  2
Continuous
 70
     0
  3
Solid line
 72
    65
 73
     0
 40
0.0
  0
LTYPE
  5
6E
330
5
100
AcDbSymbolTableRecord
100
AcDbLinetypeTableRecord
  2
HIDDEN
 70
     0
  3
Hidden __ __ __ __ __ __ __ __ __ __ __ __ __ __
 72
    65
 73
     2
 40
1.905
 49
1.27
 74
     0
 49
-0.635
 74
     0
  0
LTYPE
  5
6F
330
5
100
AcDbSymbolTableRecord
100
AcDbLinetypeTableRecord
  2
PHANTOM
 70
     0
  3
Phantom ______  __  __  ______  __  __  ______
 72
    65
 73
     6
 40
12.7
 49
6.35
 74
     0
 49
-1.27
 74
     0
 49
1.27
 74
     0
 49
-1.27
 74
     0
 49
1.27
 74
     0
 49
-1.27
 74
     0
  0
LTYPE
  5
70
330
5
100
AcDbSymbolTableRecord
100
AcDbLinetypeTableRecord
  2
CENTER
 70
     0
  3
Center ____ _ ____ _ ____ _ ____ _ ____ _ ____
 72
    65
 73
     4
 40
10.16
 49
6.35
 74
     0
 49
-1.27
 74
     0
 49
1.27
 74
     0
 49
-1.27
 74
     0
  0
LTYPE
  5
71
330
5
100
AcDbSymbolTableRecord
100
AcDbLinetypeTableRecord
  2
CENTERX2
 70
     0
  3
Center (2x) ________  __  ________  __  _____
 72
    65
 73
     4
 40
20.32
 49
12.7
 74
     0
 49
-2.54
 74
     0
 49
2.54
 74
     0
 49
-2.54
 74
     0
  0
LTYPE
  5
72
330
5
100
AcDbSymbolTableRecord
100
AcDbLinetypeTableRecord
  2
DOT2
 70
     0
  3
Dot (.5x) ........................................
 72
    65
 73
     2
 40
0.635
 49
0.0
 74
     0
 49
-0.635
 74
     0
  0
ENDTAB
  0
TABLE
  2
LAYER
  5
2
330
0
100
AcDbSymbolTable
 70
    17
  0
LAYER
  5
10
330
2
100
AcDbSymbolTableRecord
100
AcDbLayerTableRecord
  2
0
 70
     0
 62
     7
  6
Continuous
370
    -3
390
F
  0
LAYER
  5
73
330
2
100
AcDbSymbolTableRecord
100
AcDbLayerTableRecord
  2
FORMAT
 70
     0
 62
     7
  6
Continuous
370
    -3
390
F
  0
LAYER
  5
74
330
2
100
AcDbSymbolTableRecord
100
AcDbLayerTableRecord
  2
YARDIMCI_GEOMETRI
 70
     0
 62
    -6
  6
Continuous
290
     0
370
    -3
390
F
  0
LAYER
  5
75
330
2
100
AcDbSymbolTableRecord
100
AcDbLayerTableRecord
  2
SAYFA_CERCEVESI
 70
     0
 62
     7
  6
Continuous
370
    25
390
F
  0
LAYER
  5
76
330
2
100
AcDbSymbolTableRecord
100
AcDbLayerTableRecord
  2
ANTET
 70
     0
 62
     7
  6
Continuous
370
    -3
390
F
  0
LAYER
  5
77
330
2
100
AcDbSymbolTableRecord
100
AcDbLayerTableRecord
  2
OLCU
 70
     0
 62
   150
  6
Continuous
370
    -3
390
F
  0
LAYER
  5
78
330
2
100
AcDbSymbolTableRecord
100
AcDbLayerTableRecord
  2
METIN
 70
     0
 62
    96
  6
Continuous
370
    -3
390
F
  0
LAYER
  5
79
330
2
100
AcDbSymbolTableRecord
100
AcDbLayerTableRecord
  2
BALON
 70
     0
 62
     5
  6
Continuous
370
    -3
390
F
  0
LAYER
  5
7A
330
2
100
AcDbSymbolTableRecord
100
AcDbLayerTableRecord
  2
VURGU
 70
     0
 62
     7
  6
Continuous
370
    -3
390
F
  0
LAYER
  5
7B
330
2
100
AcDbSymbolTableRecord
100
AcDbLayerTableRecord
  2
SILIK
 70
     0
 62
     7
  6
Continuous
370
    -3
390
F
  0
LAYER
  5
7C
330
2
100
AcDbSymbolTableRecord
100
AcDbLayerTableRecord
  2
MODEL
 70
     0
 62
     7
  6
Continuous
370
    -3
390
F
  0
LAYER
  5
7D
330
2
100
AcDbSymbolTableRecord
100
AcDbLayerTableRecord
  2
DETAYLANDıRMA
 70
     0
 62
   190
  6
Continuous
370
    -3
390
F
  0
LAYER
  5
7E
330
2
100
AcDbSymbolTableRecord
100
AcDbLayerTableRecord
  2
TOLERANS
 70
     0
 62
   230
  6
Continuous
370
    -3
390
F
  0
LAYER
  5
7F
330
2
100
AcDbSymbolTableRecord
100
AcDbLayerTableRecord
  2
MERKEZ_CIZGILERI
 70
     0
 62
    30
  6
Continuous
370
    -3
390
F
  0
LAYER
  5
80
330
2
100
AcDbSymbolTableRecord
100
AcDbLayerTableRecord
  2
KESIT-DETAY_CIZGILERI
 70
     0
 62
     7
  6
Continuous
370
    -3
390
F
  0
LAYER
  5
81
330
2
100
AcDbSymbolTableRecord
100
AcDbLayerTableRecord
  2
\U+041E\U+0421\U+0415\U+0412\U+042B\U+0415
 70
     0
 62
     7
  6
Continuous
370
    -3
390
F
  0
LAYER
  5
82
330
2
100
AcDbSymbolTableRecord
100
AcDbLayerTableRecord
  2
\U+0412\U+041E\U+0414\U+042F\U+041D\U+042B\U+0415_\U+0417\U+041D\U+0410\U+041A\U+0418
 70
     0
 62
    11
  6
Continuous
370
    -3
390
F
  0
ENDTAB
  0
TABLE
  2
STYLE
  5
3
330
0
100
AcDbSymbolTable
 70
     1
  0
STYLE
  5
11
330
3
100
AcDbSymbolTableRecord
100
AcDbTextStyleTableRecord
  2
Standard
 70
     0
 40
0.0
 41
1.0
 50
0.0
 71
     0
 42
3.5
  3
txt
  4

  0
ENDTAB
  0
TABLE
  2
VIEW
  5
6
330
0
100
AcDbSymbolTable
 70
     0
  0
ENDTAB
  0
TABLE
  2
UCS
  5
7
330
0
100
AcDbSymbolTable
 70
     0
  0
ENDTAB
  0
TABLE
  2
APPID
  5
9
330
0
100
AcDbSymbolTable
 70
     1
  0
APPID
  5
12
330
9
100
AcDbSymbolTableRecord
100
AcDbRegAppTableRecord
  2
ACAD
 70
     0
  0
ENDTAB
  0
TABLE
  2
DIMSTYLE
  5
A
330
0
100
AcDbSymbolTable
 70
     1
100
AcDbDimStyleTable
  0
DIMSTYLE
105
27
330
A
100
AcDbSymbolTableRecord
100
AcDbDimStyleTableRecord
  2
ISO-25
 70
     0
 41
2.5
 42
0.625
 43
3.75
 44
1.25
 73
     0
 74
     0
 77
     1
 78
     8
140
2.5
141
2.5
143
0.0393700787
147
0.625
171
     3
172
     1
178
     0
271
     2
272
     2
274
     3
278
    44
283
     0
284
     8
340
11
  0
ENDTAB
  0
TABLE
  2
BLOCK_RECORD
  5
1
330
0
100
AcDbSymbolTable
 70
     2
  0
BLOCK_RECORD
  5
1F
330
1
100
AcDbSymbolTableRecord
100
AcDbBlockTableRecord
  2
*Model_Space
340
22
  0
BLOCK_RECORD
  5
1B
330
1
100
AcDbSymbolTableRecord
100
AcDbBlockTableRecord
  2
*Paper_Space
340
1E
  0
BLOCK_RECORD
  5
23
330
1
100
AcDbSymbolTableRecord
100
AcDbBlockTableRecord
  2
*Paper_Space0
340
26
  0
BLOCK_RECORD
  5
88
330
1
100
AcDbSymbolTableRecord
100
AcDbBlockTableRecord
  2
SW_CENTERMARKSYMBOL_0
340
0
102
{BLKREFS
331
93
102
}
  0
ENDTAB
  0
ENDSEC
  0
SECTION
  2
BLOCKS
  0
BLOCK
  5
20
330
1F
100
AcDbEntity
  8
0
100
AcDbBlockBegin
  2
*Model_Space
 70
     0
 10
0.0
 20
0.0
 30
0.0
  3
*Model_Space
  1

  0
ENDBLK
  5
21
330
1F
100
AcDbEntity
  8
0
100
AcDbBlockEnd
  0
BLOCK
  5
1C
330
1B
100
AcDbEntity
 67
     1
  8
0
100
AcDbBlockBegin
  2
*Paper_Space
 70
     0
 10
0.0
 20
0.0
 30
0.0
  3
*Paper_Space
  1

  0
ENDBLK
  5
1D
330
1B
100
AcDbEntity
 67
     1
  8
0
100
AcDbBlockEnd
  0
BLOCK
  5
24
330
23
100
AcDbEntity
  8
0
100
AcDbBlockBegin
  2
*Paper_Space0
 70
     0
 10
0.0
 20
0.0
 30
0.0
  3
*Paper_Space0
  1

  0
ENDBLK
  5
25
330
23
100
AcDbEntity
  8
0
100
AcDbBlockEnd
  0
BLOCK
  5
89
330
88
100
AcDbEntity
  8
0
100
AcDbBlockBegin
  2
SW_CENTERMARKSYMBOL_0
 70
     0
 10
0.0
 20
0.0
 30
0.0
  3
SW_CENTERMARKSYMBOL_0
  1

  0
LINE
  5
8B
330
88
100
AcDbEntity
  8
FORMAT
 62
     0
100
AcDbLine
 10
0.0
 20
0.0
 30
0.0
 11
0.0
 21
2.5
 31
0.0
  0
LINE
  5
8C
330
88
100
AcDbEntity
  8
FORMAT
 62
     0
100
AcDbLine
 10
0.0
 20
0.0
 30
0.0
 11
-2.5
 21
0.0
 31
0.0
  0
LINE
  5
8D
330
88
100
AcDbEntity
  8
FORMAT
 62
     0
100
AcDbLine
 10
0.0
 20
0.0
 30
0.0
 11
0.0
 21
-2.5
 31
0.0
  0
LINE
  5
8E
330
88
100
AcDbEntity
  8
FORMAT
 62
     0
100
AcDbLine
 10
0.0
 20
0.0
 30
0.0
 11
2.5
 21
0.0
 31
0.0
  0
LINE
  5
8F
330
88
100
AcDbEntity
  8
FORMAT
 62
     0
100
AcDbLine
 10
0.0
 20
5.0
 30
0.0
 11
0.0
 21
142.5
 31
0.0
  0
LINE
  5
90
330
88
100
AcDbEntity
  8
FORMAT
 62
     0
100
AcDbLine
 10
-5.0
 20
0.0
 30
0.0
 11
-142.5
 21
0.0
 31
0.0
  0
LINE
  5
91
330
88
100
AcDbEntity
  8
FORMAT
 62
     0
100
AcDbLine
 10
0.0
 20
-5.0
 30
0.0
 11
0.0
 21
-142.5
 31
0.0
  0
LINE
  5
92
330
88
100
AcDbEntity
  8
FORMAT
 62
     0
100
AcDbLine
 10
5.0
 20
0.0
 30
0.0
 11
142.5
 21
0.0
 31
0.0
  0
ENDBLK
  5
8A
330
88
100
AcDbEntity
  8
0
100
AcDbBlockEnd
  0
ENDSEC
  0
SECTION
  2
ENTITIES
  0
CIRCLE
  5
83
330
1F
100
AcDbEntity
  8
0
  6
Continuous
 62
     7
370
    25
100
AcDbCircle
 10
130.6810329512
 20
112.0420513222
 30
0.0
 40
140.0
  0
CIRCLE
  5
84
330
1F
100
AcDbEntity
  8
0
  6
Continuous
 62
     7
370
    25
100
AcDbCircle
 10
130.6810329512
 20
112.0420513222
 30
0.0
 40
123.4
  0
CIRCLE
  5
85
330
1F
100
AcDbEntity
  8
0
  6
Continuous
 62
     7
370
    25
100
AcDbCircle
 10
130.6810329512
 20
112.0420513222
 30
0.0
 40
123.3143609346716
  0
CIRCLE
  5
86
330
1F
100
AcDbEntity
  8
0
  6
Continuous
 62
     7
370
    25
100
AcDbCircle
 10
130.6810329512
 20
112.0420513222
 30
0.0
 40
110.2856390653284
  0
CIRCLE
  5
87
330
1F
100
AcDbEntity
  8
0
  6
Continuous
 62
     7
370
    25
100
AcDbCircle
 10
130.6810329512
 20
112.0420513222
 30
0.0
 40
110.2
  0
INSERT
  5
93
330
1F
100
AcDbEntity
  8
FORMAT
 62
     7
100
AcDbBlockReference
  2
SW_CENTERMARKSYMBOL_0
 10
130.6810329512
 20
112.0420513222
 30
0.0
  0
ARC
  5
94
330
1F
100
AcDbEntity
  8
0
  6
Continuous
 62
     7
370
    25
100
AcDbCircle
 10
-374.1276899569
 20
250.0420513222
 30
0.0
 40
2.00000000000001
100
AcDbArc
 50
79.3803447238
 51
90.0
  0
ARC
  5
95
330
1F
100
AcDbEntity
  8
0
  6
Continuous
 62
     7
370
    25
100
AcDbCircle
 10
-374.1276899569
 20
-25.9579486778
 30
0.0
 40
2.0
100
AcDbArc
 50
270.0
 51
280.6196552762
  0
LINE
  5
96
330
1F
100
AcDbEntity
  8
0
  6
Continuous
 62
     7
370
    25
100
AcDbLine
 10
-374.1276901788
 20
252.0420519183
 30
0.0
 11
-512.9418079383
 21
252.0420519183
 31
0.0
  0
LINE
  5
97
330
1F
100
AcDbEntity
  8
0
  6
Continuous
 62
     7
370
    25
100
AcDbLine
 10
-512.9418079383
 20
-27.9579492738
 30
0.0
 11
-374.1276901788
 21
-27.9579492738
 31
0.0
  0
LINE
  5
98
330
1F
100
AcDbEntity
  8
0
  6
Continuous
 62
     7
370
    25
100
AcDbLine
 10
-373.759113682
 20
-27.9236915042
 30
0.0
 11
-294.1245068438
 21
-12.9922064474
 31
0.0
  0
LINE
  5
99
330
1F
100
AcDbEntity
  8
0
  6
Continuous
 62
     7
370
    25
100
AcDbLine
 10
-294.1245068438
 20
237.0763090918
 30
0.0
 11
-373.759113682
 21
252.0077941487
 31
0.0
  0
ARC
  5
9A
330
1F
100
AcDbEntity
  8
0
  6
Continuous
 62
     7
370
    25
100
AcDbCircle
 10
-293.7559291621
 20
239.0420513222
 30
0.0
 40
2.00000000000001
100
AcDbArc
 50
259.3803447238
 51
270.0
  0
ARC
  5
9B
330
1F
100
AcDbEntity
  8
0
  6
Continuous
 62
     7
370
    25
100
AcDbCircle
 10
-293.7559291621
 20
-14.9579486778
 30
0.0
 40
2.0
100
AcDbArc
 50
90.0
 51
100.6196552762
  0
LINE
  5
9C
330
1F
100
AcDbEntity
  8
0
  6
Continuous
 62
     7
370
    25
100
AcDbLine
 10
-164.9418030507
 20
237.0420513222
 30
0.0
 11
-293.7559303469
 21
237.0420513222
 31
0.0
  0
LINE
  5
9D
330
1F
100
AcDbEntity
  8
0
  6
Continuous
 62
     7
370
    25
100
AcDbLine
 10
-293.7559303469
 20
-12.9579486778
 30
0.0
 11
-164.9418030507
 21
-12.9579486778
 31
0.0
  0
LINE
  5
9E
330
1F
100
AcDbEntity
  8
0
  6
Continuous
 62
     7
370
    25
100
AcDbLine
 10
-512.9418079383
 20
252.0420519183
 30
0.0
 11
-512.9418079383
 21
-27.9579492738
 31
0.0
  0
LINE
  5
9F
330
1F
100
AcDbEntity
  8
0
  6
Continuous
 62
     7
370
    25
100
AcDbLine
 10
-164.9418030507
 20
237.0420513222
 30
0.0
 11
-164.9418030507
 21
-12.9579486778
 31
0.0
  0
LINE
  5
A0
330
1F
100
AcDbEntity
  8
0
  6
Continuous
 62
     1
370
    25
100
AcDbLine
 10
-373.759113682
 20
252.0077941487
 30
0.0
 11
-373.759113682
 21
-27.9236915042
 31
0.0
  0
LINE
  5
A1
330
1F
100
AcDbEntity
  8
0
  6
Continuous
 62
     1
370
    25
100
AcDbLine
 10
-374.1276901788
 20
252.0420519183
 30
0.0
 11
-374.1276901788
 21
-27.9579492738
 31
0.0
  0
LINE
  5
A2
330
1F
100
AcDbEntity
  8
0
  6
Continuous
 62
     1
370
    25
100
AcDbLine
 10
-294.1245068438
 20
237.0763090918
 30
0.0
 11
-294.1245068438
 21
-12.9922064474
 31
0.0
  0
LINE
  5
A3
330
1F
100
AcDbEntity
  8
0
  6
Continuous
 62
     1
370
    25
100
AcDbLine
 10
-293.7559303469
 20
237.0420513222
 30
0.0
 11
-293.7559303469
 21
-12.9579486778
 31
0.0
  0
ARC
  5
A4
330
1F
100
AcDbEntity
  8
0
  6
Continuous
 62
     7
370
    25
100
AcDbCircle
 10
268.6810329512
 20
522.3367631783
 30
0.0
 40
2.0
100
AcDbArc
 50
349.3803447238
 51
0.0
  0
ARC
  5
A5
330
1F
100
AcDbEntity
  8
0
  6
Continuous
 62
     7
370
    25
100
AcDbCircle
 10
-7.3189670488
 20
522.3367631783
 30
0.0
 40
2.00000000000001
100
AcDbArc
 50
180.0
 51
190.6196552762
  0
LINE
  5
A6
330
1F
100
AcDbEntity
  8
0
  6
Continuous
 62
     7
370
    25
100
AcDbLine
 10
270.6810335472
 20
522.3367634002
 30
0.0
 11
270.6810335472
 21
661.1508811597
 31
0.0
  0
LINE
  5
A7
330
1F
100
AcDbEntity
  8
0
  6
Continuous
 62
     7
370
    25
100
AcDbLine
 10
-9.3189676449
 20
661.1508811597
 30
0.0
 11
-9.3189676449
 21
522.3367634002
 31
0.0
  0
LINE
  5
A8
330
1F
100
AcDbEntity
  8
0
  6
Continuous
 62
     7
370
    25
100
AcDbLine
 10
-9.2847098753
 20
521.9681869034
 30
0.0
 11
5.6467751816
 21
442.3335800651
 31
0.0
  0
LINE
  5
A9
330
1F
100
AcDbEntity
  8
0
  6
Continuous
 62
     7
370
    25
100
AcDbLine
 10
255.7152907208
 20
442.3335800651
 30
0.0
 11
270.6467757776
 21
521.9681869034
 31
0.0
  0
ARC
  5
AA
330
1F
100
AcDbEntity
  8
0
  6
Continuous
 62
     7
370
    25
100
AcDbCircle
 10
257.6810329512
 20
441.9650023835
 30
0.0
 40
2.000000000000021
100
AcDbArc
 50
169.3803447238
 51
180.0
  0
ARC
  5
AB
330
1F
100
AcDbEntity
  8
0
  6
Continuous
 62
     7
370
    25
100
AcDbCircle
 10
3.6810329512
 20
441.9650023835
 30
0.0
 40
2.000000000000011
100
AcDbArc
 50
0.0
 51
10.6196552762
  0
LINE
  5
AC
330
1F
100
AcDbEntity
  8
0
  6
Continuous
 62
     7
370
    25
100
AcDbLine
 10
255.6810329512
 20
313.1508762721
 30
0.0
 11
255.6810329512
 21
441.9650035683
 31
0.0
  0
LINE
  5
AD
330
1F
100
AcDbEntity
  8
0
  6
Continuous
 62
     7
370
    25
100
AcDbLine
 10
5.6810329512
 20
441.9650035683
 30
0.0
 11
5.6810329512
 21
313.1508762721
 31
0.0
  0
LINE
  5
AE
330
1F
100
AcDbEntity
  8
0
  6
Continuous
 62
     7
370
    25
100
AcDbLine
 10
270.6810335472
 20
661.1508811597
 30
0.0
 11
-9.3189676449
 21
661.1508811597
 31
0.0
  0
LINE
  5
AF
330
1F
100
AcDbEntity
  8
0
  6
Continuous
 62
     7
370
    25
100
AcDbLine
 10
255.6810329512
 20
313.1508762721
 30
0.0
 11
5.6810329512
 21
313.1508762721
 31
0.0
  0
LINE
  5
B0
330
1F
100
AcDbEntity
  8
0
  6
Continuous
 62
     1
370
    25
100
AcDbLine
 10
270.6467757776
 20
521.9681869034
 30
0.0
 11
-9.2847098753
 21
521.9681869034
 31
0.0
  0
LINE
  5
B1
330
1F
100
AcDbEntity
  8
0
  6
Continuous
 62
     1
370
    25
100
AcDbLine
 10
270.6810335472
 20
522.3367634002
 30
0.0
 11
-9.3189676449
 21
522.3367634002
 31
0.0
  0
LINE
  5
B2
330
1F
100
AcDbEntity
  8
0
  6
Continuous
 62
     1
370
    25
100
AcDbLine
 10
255.7152907208
 20
442.3335800651
 30
0.0
 11
5.6467751816
 21
442.3335800651
 31
0.0
  0
LINE
  5
B3
330
1F
100
AcDbEntity
  8
0
  6
Continuous
 62
     1
370
    25
100
AcDbLine
 10
255.6810329512
 20
441.9650035683
 30
0.0
 11
5.6810329512
 21
441.9650035683
 31
0.0
  0
ARC
  5
B4
330
1F
100
AcDbEntity
  8
0
  6
Continuous
 62
     7
370
    25
100
AcDbCircle
 10
615.1471552293
 20
-25.9579486778
 30
0.0
 40
2.00000000000001
100
AcDbArc
 50
259.3803447238
 51
270.0
  0
ARC
  5
B5
330
1F
100
AcDbEntity
  8
0
  6
Continuous
 62
     7
370
    25
100
AcDbCircle
 10
615.1471552293
 20
250.0420513222
 30
0.0
 40
2.000000000000021
100
AcDbArc
 50
90.0
 51
100.6196552762
  0
LINE
  5
B6
330
1F
100
AcDbEntity
  8
0
  6
Continuous
 62
     7
370
    25
100
AcDbLine
 10
615.1471554512
 20
-27.9579492738
 30
0.0
 11
753.9612732107
 21
-27.9579492738
 31
0.0
  0
LINE
  5
B7
330
1F
100
AcDbEntity
  8
0
  6
Continuous
 62
     7
370
    25
100
AcDbLine
 10
753.9612732107
 20
252.0420519183
 30
0.0
 11
615.1471554512
 21
252.0420519183
 31
0.0
  0
LINE
  5
B8
330
1F
100
AcDbEntity
  8
0
  6
Continuous
 62
     7
370
    25
100
AcDbLine
 10
614.7785789544
 20
252.0077941487
 30
0.0
 11
535.1439721161
 21
237.0763090918
 31
0.0
  0
LINE
  5
B9
330
1F
100
AcDbEntity
  8
0
  6
Continuous
 62
     7
370
    25
100
AcDbLine
 10
535.1439721161
 20
-12.9922064474
 30
0.0
 11
614.7785789544
 21
-27.9236915042
 31
0.0
  0
ARC
  5
BA
330
1F
100
AcDbEntity
  8
0
  6
Continuous
 62
     7
370
    25
100
AcDbCircle
 10
534.7753944345
 20
-14.9579486778
 30
0.0
 40
2.0
100
AcDbArc
 50
79.3803447238
 51
90.0
  0
ARC
  5
BB
330
1F
100
AcDbEntity
  8
0
  6
Continuous
 62
     7
370
    25
100
AcDbCircle
 10
534.7753944345
 20
239.0420513222
 30
0.0
 40
2.0
100
AcDbArc
 50
270.0
 51
280.6196552762
  0
LINE
  5
BC
330
1F
100
AcDbEntity
  8
0
  6
Continuous
 62
     7
370
    25
100
AcDbLine
 10
405.9612683231
 20
-12.9579486778
 30
0.0
 11
534.7753956193
 21
-12.9579486778
 31
0.0
  0
LINE
  5
BD
330
1F
100
AcDbEntity
  8
0
  6
Continuous
 62
     7
370
    25
100
AcDbLine
 10
534.7753956193
 20
237.0420513222
 30
0.0
 11
405.9612683231
 21
237.0420513222
 31
0.0
  0
LINE
  5
BE
330
1F
100
AcDbEntity
  8
0
  6
Continuous
 62
     7
370
    25
100
AcDbLine
 10
753.9612732107
 20
112.0420513222
 30
0.0
 11
753.9612732107
 21
252.0420519183
 31
0.0
  0
LINE
  5
BF
330
1F
100
AcDbEntity
  8
0
  6
Continuous
 62
     7
370
    25
100
AcDbLine
 10
753.9612732107
 20
-27.9579492738
 30
0.0
 11
753.9612732107
 21
112.0420513222
 31
0.0
  0
LINE
  5
C0
330
1F
100
AcDbEntity
  8
0
  6
Continuous
 62
     7
370
    25
100
AcDbLine
 10
405.9612683231
 20
112.0420513222
 30
0.0
 11
405.9612683231
 21
237.0420513222
 31
0.0
  0
LINE
  5
C1
330
1F
100
AcDbEntity
  8
0
  6
Continuous
 62
     7
370
    25
100
AcDbLine
 10
405.9612683231
 20
-12.9579486778
 30
0.0
 11
405.9612683231
 21
112.0420513222
 31
0.0
  0
LINE
  5
C2
330
1F
100
AcDbEntity
  8
0
  6
Continuous
 62
     1
370
    25
100
AcDbLine
 10
614.7785789544
 20
112.0420513222
 30
0.0
 11
614.7785789544
 21
252.0077941487
 31
0.0
  0
LINE
  5
C3
330
1F
100
AcDbEntity
  8
0
  6
Continuous
 62
     1
370
    25
100
AcDbLine
 10
614.7785789544
 20
-27.9236915042
 30
0.0
 11
614.7785789544
 21
112.0420513222
 31
0.0
  0
LINE
  5
C4
330
1F
100
AcDbEntity
  8
0
  6
Continuous
 62
     1
370
    25
100
AcDbLine
 10
615.1471554512
 20
112.0420513222
 30
0.0
 11
615.1471554512
 21
252.0420519183
 31
0.0
  0
LINE
  5
C5
330
1F
100
AcDbEntity
  8
0
  6
Continuous
 62
     1
370
    25
100
AcDbLine
 10
615.1471554512
 20
-27.9579492738
 30
0.0
 11
615.1471554512
 21
112.0420513222
 31
0.0
  0
LINE
  5
C6
330
1F
100
AcDbEntity
  8
0
  6
Continuous
 62
     1
370
    25
100
AcDbLine
 10
535.1439721161
 20
112.0420513222
 30
0.0
 11
535.1439721161
 21
237.0763090918
 31
0.0
  0
LINE
  5
C7
330
1F
100
AcDbEntity
  8
0
  6
Continuous
 62
     1
370
    25
100
AcDbLine
 10
535.1439721161
 20
-12.9922064474
 30
0.0
 11
535.1439721161
 21
112.0420513222
 31
0.0
  0
LINE
  5
C8
330
1F
100
AcDbEntity
  8
0
  6
Continuous
 62
     1
370
    25
100
AcDbLine
 10
534.7753956193
 20
112.0420513222
 30
0.0
 11
534.7753956193
 21
237.0420513222
 31
0.0
  0
LINE
  5
C9
330
1F
100
AcDbEntity
  8
0
  6
Continuous
 62
     1
370
    25
100
AcDbLine
 10
534.7753956193
 20
-12.9579486778
 30
0.0
 11
534.7753956193
 21
112.0420513222
 31
0.0
  0
ARC
  5
CA
330
1F
100
AcDbEntity
  8
0
  6
Continuous
 62
     7
370
    25
100
AcDbCircle
 10
-7.3189670488
 20
-311.1147956448
 30
0.0
 40
2.00000000000001
100
AcDbArc
 50
169.3803447238
 51
180.0
  0
ARC
  5
CB
330
1F
100
AcDbEntity
  8
0
  6
Continuous
 62
     7
370
    25
100
AcDbCircle
 10
268.6810329512
 20
-311.1147956448
 30
0.0
 40
2.0
100
AcDbArc
 50
0.0
 51
10.6196552762
  0
LINE
  5
CC
330
1F
100
AcDbEntity
  8
0
  6
Continuous
 62
     7
370
    25
100
AcDbLine
 10
-9.3189676449
 20
-311.1147958667
 30
0.0
 11
-9.3189676449
 21
-449.9289136262
 31
0.0
  0
LINE
  5
CD
330
1F
100
AcDbEntity
  8
0
  6
Continuous
 62
     7
370
    25
100
AcDbLine
 10
270.6810335472
 20
-449.9289136262
 30
0.0
 11
270.6810335472
 21
-311.1147958667
 31
0.0
  0
LINE
  5
CE
330
1F
100
AcDbEntity
  8
0
  6
Continuous
 62
     7
370
    25
100
AcDbLine
 10
270.6467757776
 20
-310.7462193699
 30
0.0
 11
255.7152907208
 21
-231.1116125317
 31
0.0
  0
LINE
  5
CF
330
1F
100
AcDbEntity
  8
0
  6
Continuous
 62
     7
370
    25
100
AcDbLine
 10
5.6467751816
 20
-231.1116125317
 30
0.0
 11
-9.2847098753
 21
-310.7462193699
 31
0.0
  0
ARC
  5
D0
330
1F
100
AcDbEntity
  8
0
  6
Continuous
 62
     7
370
    25
100
AcDbCircle
 10
3.6810329512
 20
-230.74303485
 30
0.0
 40
2.000000000000006
100
AcDbArc
 50
349.3803447238
 51
0.0
  0
ARC
  5
D1
330
1F
100
AcDbEntity
  8
0
  6
Continuous
 62
     7
370
    25
100
AcDbCircle
 10
257.6810329512
 20
-230.74303485
 30
0.0
 40
2.000000000000016
100
AcDbArc
 50
180.0
 51
190.6196552762
  0
LINE
  5
D2
330
1F
100
AcDbEntity
  8
0
  6
Continuous
 62
     7
370
    25
100
AcDbLine
 10
5.6810329512
 20
-101.9289087386
 30
0.0
 11
5.6810329512
 21
-230.7430360348
 31
0.0
  0
LINE
  5
D3
330
1F
100
AcDbEntity
  8
0
  6
Continuous
 62
     7
370
    25
100
AcDbLine
 10
255.6810329512
 20
-230.7430360348
 30
0.0
 11
255.6810329512
 21
-101.9289087386
 31
0.0
  0
LINE
  5
D4
330
1F
100
AcDbEntity
  8
0
  6
Continuous
 62
     7
370
    25
100
AcDbLine
 10
-9.3189676449
 20
-449.9289136262
 30
0.0
 11
270.6810335472
 21
-449.9289136262
 31
0.0
  0
LINE
  5
D5
330
1F
100
AcDbEntity
  8
0
  6
Continuous
 62
     7
370
    25
100
AcDbLine
 10
5.6810329512
 20
-101.9289087386
 30
0.0
 11
255.6810329512
 21
-101.9289087386
 31
0.0
  0
LINE
  5
D6
330
1F
100
AcDbEntity
  8
0
  6
Continuous
 62
     1
370
    25
100
AcDbLine
 10
-9.2847098753
 20
-310.7462193699
 30
0.0
 11
270.6467757776
 21
-310.7462193699
 31
0.0
  0
LINE
  5
D7
330
1F
100
AcDbEntity
  8
0
  6
Continuous
 62
     1
370
    25
100
AcDbLine
 10
-9.3189676449
 20
-311.1147958667
 30
0.0
 11
270.6810335472
 21
-311.1147958667
 31
0.0
  0
LINE
  5
D8
330
1F
100
AcDbEntity
  8
0
  6
Continuous
 62
     1
370
    25
100
AcDbLine
 10
5.6467751816
 20
-231.1116125317
 30
0.0
 11
255.7152907208
 21
-231.1116125317
 31
0.0
  0
LINE
  5
D9
330
1F
100
AcDbEntity
  8
0
  6
Continuous
 62
     1
370
    25
100
AcDbLine
 10
5.6810329512
 20
-230.7430360348
 30
0.0
 11
255.6810329512
 21
-230.7430360348
 31
0.0
  0
LINE
  5
DA
330
1F
100
AcDbEntity
  8
0
  6
Continuous
 62
     7
370
    25
100
AcDbLine
 10
618.6630114665
 20
-132.3540312175
 30
0.0
 11
520.5066074744
 21
-75.6895453303
 31
0.0
  0
LINE
  5
DB
330
1F
100
AcDbEntity
  8
0
  6
Continuous
 62
     7
370
    25
100
AcDbLine
 10
380.517989098
 20
-318.1832257255
 30
0.0
 11
478.6743930902
 21
-374.8477116126
 31
0.0
  0
LINE
  5
DC
330
1F
100
AcDbEntity
  8
0
  6
Continuous
 62
     7
370
    25
100
AcDbLine
 10
488.8500147274
 20
-379.2554528186
 30
0.0
 11
551.5694248828
 21
-398.3738935195
 31
0.0
  0
LINE
  5
DD
330
1F
100
AcDbEntity
  8
0
  6
Continuous
 62
     7
370
    25
100
AcDbLine
 10
675.4896204847
 20
-183.7145552024
 30
0.0
 11
627.5686642645
 21
-138.9616724026
 31
0.0
  0
LINE
  5
DE
330
1F
100
AcDbEntity
  8
0
  6
Continuous
 62
     7
370
    25
100
AcDbLine
 10
759.0803818303
 20
-230.735292856
 30
0.0
 11
672.0258554968
 21
-180.4797845223
 31
0.0
  0
LINE
  5
DF
330
1F
100
AcDbEntity
  8
0
  6
Continuous
 62
     7
370
    25
100
AcDbLine
 10
547.0360150266
 20
-396.9919967705
 30
0.0
 11
634.09054136
 21
-447.2475051043
 31
0.0
  0
ARC
  5
E0
330
1F
100
AcDbEntity
  8
0
  6
Continuous
 62
     7
370
    25
100
AcDbCircle
 10
594.9806660565
 20
-173.3170795922
 30
0.0
 40
47.31622149185775
100
AcDbArc
 50
47.6237753112
 51
59.9661083167
  0
ARC
  5
E1
330
1F
100
AcDbEntity
  8
0
  6
Continuous
 62
     7
370
    25
100
AcDbCircle
 10
502.3262795357
 20
-333.8032224361
 30
0.0
 40
47.37152967967967
100
AcDbArc
 50
240.0473035752
 51
252.1825592063
  0
LWPOLYLINE
  5
E2
330
1F
100
AcDbEntity
  8
0
  6
Continuous
 62
     7
370
    25
100
AcDbPolyline
 90
      126
 70
   128
 43
0.0
 10
351.5173484986
 20
-254.0849535988
 10
351.6423876614
 20
-248.2690550266
 10
352.0171679751
 20
-242.3234928282
 10
352.6407727457
 20
-236.2632689495
 10
353.5116003929
 20
-230.103707708
 10
354.6274592806
 20
-223.8603618852
 10
355.9855361068
 20
-217.5490032174
 10
357.5823853665
 20
-211.1855813301
 10
359.4139925723
 20
-204.7861568227
 10
361.4757215711
 20
-198.3669058269
 10
363.7623619585
 20
-191.9440409226
 10
366.2681448848
 20
-185.5337898466
 10
368.9867325176
 20
-179.1523376965
 10
371.9112601889
 20
-172.8158147668
 10
375.0343416636
 20
-166.5402205037
 10
378.3480849442
 20
-160.3414082972
 10
381.8441238813
 20
-154.2350368139
 10
385.5136234419
 20
-148.236536538
 10
389.3473165875
 20
-142.3610519787
 10
393.3355200798
 20
-136.6234325468
 10
397.4681502851
 20
-131.038168677
 10
401.734781127
 20
-125.6193705404
 10
406.1246230122
 20
-120.3807193728
 10
410.6265965878
 20
-115.335467482
 10
415.2293222048
 20
-110.4963287397
 10
419.9211778696
 20
-105.8755607172
 10
424.690307147
 20
-101.4848141144
 10
429.524665258
 20
-97.3351791523
 10
434.4120401531
 20
-93.4371612404
 10
439.340086757
 20
-89.8005760357
 10
444.2963539687
 20
-86.4346311953
 10
449.268323845
 20
-83.3478307517
 10
454.2434359663
 20
-80.5479610465
 10
459.209123328
 20
-78.0420943462
 10
464.1528413155
 20
-75.8365599469
 10
469.0621022788
 20
-73.9369485507
 10
473.9245038491
 20
-72.348035081
 10
478.7277668054
 20
-71.0738419947
 10
483.4597515384
 20
-70.1175932759
 10
488.1085094165
 20
-69.4816969499
 10
492.662297274
 20
-69.1677610542
 10
497.1096116555
 20
-69.1765799535
 10
501.4392151574
 20
-69.5081313006
 10
505.6401706726
 20
-70.1615806018
 10
509.7018730003
 20
-71.1352690529
 10
513.6140541145
 20
-72.4267469999
 10
517.3668358477
 20
-74.0327435254
 10
520.9507351589
 20
-75.9492059934
 10
524.3567062808
 20
-78.1712939692
 10
527.5761354511
 20
-80.6933944285
 10
530.6008935966
 20
-83.5091339293
 10
533.4233416008
 20
-86.6113999061
 10
536.0363513781
 20
-89.9923528384
 10
538.4333216782
 20
-93.6434597131
 10
540.6081938918
 20
-97.5554909842
 10
542.5554731234
 20
-101.718569244
 10
544.2702492652
 20
-106.1221753091
 10
545.7481811918
 20
-110.7551847208
 10
546.9855389071
 20
-115.6058981683
 10
547.9791930076
 20
-120.6620582168
 10
548.7266462925
 20
-125.9108918974
 10
549.225991617
 20
-131.3391456838
 10
549.4759856489
 20
-136.9331001385
 10
549.4759856489
 20
-142.678629603
 10
549.225991617
 20
-148.5612210231
 10
548.7266462925
 20
-154.5660066493
 10
547.9791930076
 20
-160.6778315234
 10
546.9855389071
 20
-166.8812401765
 10
545.7481811918
 20
-173.1605764329
 10
544.2702492652
 20
-179.4999697257
 10
542.5554731234
 20
-185.883414182
 10
540.6081938918
 20
-192.2947731866
 10
538.4333216782
 20
-198.7178584662
 10
536.0363513781
 20
-205.136448342
 10
533.4233416008
 20
-211.5343181462
 10
530.6008935966
 20
-217.8953132247
 10
527.5761354511
 20
-224.2033641443
 10
524.3567062808
 20
-230.4425384035
 10
520.9507351589
 20
-236.5970769321
 10
517.3668358477
 20
-242.6514214675
 10
513.6140541145
 20
-248.5902875545
 10
509.7018730003
 20
-254.3986736709
 10
505.6401706726
 20
-260.0619038098
 10
501.4392151574
 20
-265.5656731069
 10
497.1096116555
 20
-270.8960782537
 10
492.662297274
 20
-276.0396570414
 10
488.1085094165
 20
-280.9834126929
 10
483.4597515384
 20
-285.7148579658
 10
478.7277668054
 20
-290.2220425273
 10
473.9245038491
 20
-294.4935788063
 10
469.0621022788
 20
-298.518674692
 10
464.1528413155
 20
-302.2871753548
 10
459.209123328
 20
-305.7895362481
 10
454.2434359663
 20
-309.0169301396
 10
449.268323845
 20
-311.9612026222
 10
444.2963539687
 20
-314.6149164074
 10
439.340086757
 20
-316.9713558853
 10
434.4120401531
 20
-319.0245721787
 10
429.524665258
 20
-320.7693972093
 10
424.690307147
 20
-322.2013933138
 10
419.9211778696
 20
-323.3169661694
 10
415.2293222048
 20
-324.1132993913
 10
410.6265965878
 20
-324.5883545306
 10
406.1246230122
 20
-324.7409706904
 10
401.734781127
 20
-324.5707230795
 10
397.4681502851
 20
-324.0780720569
 10
393.3355200798
 20
-323.2642414594
 10
389.3473165875
 20
-322.1313037663
 10
385.5136234419
 20
-320.6821070967
 10
381.8441238813
 20
-318.9203208324
 10
378.3480849442
 20
-316.8503899879
 10
375.0343416636
 20
-314.4775443352
 10
371.9112601889
 20
-311.8077831904
 10
368.9867325176
 20
-308.8478480374
 10
366.2681448848
 20
-305.6052103564
 10
363.7623619585
 20
-302.0880746655
 10
361.4757215711
 20
-298.3053085565
 10
359.4139925723
 20
-294.2664791939
 10
357.5823853665
 20
-289.9817833532
 10
355.9855361068
 20
-285.4620443772
 10
354.6274592806
 20
-280.718687837
 10
353.5116003929
 20
-275.7636852628
 10
352.6407727457
 20
-270.6095602215
 10
352.0171679751
 20
-265.2693350852
 10
351.6423876614
 20
-259.7564850266
 10
351.5173484986
 20
-254.0849535988
  0
LWPOLYLINE
  5
E3
330
1F
100
AcDbEntity
  8
0
  6
Continuous
 62
     7
370
    25
100
AcDbPolyline
 90
      118
 70
   128
 43
0.0
 10
363.2553195659
 20
-247.3087671368
 10
363.3811121036
 20
-241.8276304837
 10
363.7581262003
 20
-236.2170607637
 10
364.3852765745
 20
-230.4932333008
 10
365.2607509117
 20
-224.6726549128
 10
366.3820309379
 20
-218.7721034561
 10
367.7458766139
 20
-212.8085962653
 10
369.3483577462
 20
-206.7993255167
 10
371.1848592549
 20
-200.7616171637
 10
373.2500811737
 20
-194.7128792255
 10
375.5380702603
 20
-188.6705531204
 10
378.0422305329
 20
-182.6520558715
 10
380.7553390754
 20
-176.6747496898
 10
383.6695776473
 20
-170.7558568052
 10
386.7765379524
 20
-164.9124533835
 10
390.0672637854
 20
-159.1613843583
 10
393.5322721053
 20
-153.5192269306
 10
397.1615688407
 20
-148.0022510269
 10
400.9446857681
 20
-142.6263675903
 10
404.8707226588
 20
-137.4070738318
 10
408.9283525473
 20
-132.35941977
 10
413.1058823173
 20
-127.4979550048
 10
417.3912632384
 20
-122.8367043831
 10
421.7721410157
 20
-118.3890965203
 10
426.2358847655
 20
-114.167965324
 10
430.7696212598
 20
-110.1854754715
 10
435.3602836585
 20
-106.4531064449
 10
439.9946319242
 20
-102.9816285787
 10
444.6593055059
 20
-99.7810483107
 10
449.3408553608
 20
-96.8605896968
 10
454.0257823966
 20
-94.2286783024
 10
458.7005794538
 20
-91.8928926313
 10
463.3517667026
 20
-89.8599801941
 10
467.9659351889
 20
-88.1357958671
 10
472.5297803382
 20
-86.7253129701
 10
477.030144431
 20
-85.632592661
 10
481.4540488723
 20
-84.8607957269
 10
485.7887416061
 20
-84.41213696
 10
490.0217208237
 20
-84.2879201415
 10
494.1407876464
 20
-84.4884893769
 10
498.1340592972
 20
-85.0132823296
 10
501.9900270522
 20
-85.8607785149
 10
505.6975694119
 20
-87.0285281987
 10
509.2460021501
 20
-88.513178258
 10
512.6250835826
 20
-90.3104387212
 10
515.8250830558
 20
-92.4151223181
 10
518.8367704098
 20
-94.8211748982
 10
521.6514528572
 20
-97.5216541405
 10
524.2610276663
 20
-100.508766061
 10
526.6579663563
 20
-103.7739045551
 10
528.8353568441
 20
-107.3076574856
 10
530.7869245176
 20
-111.0998279773
 10
532.507037504
 20
-115.1394922126
 10
533.9907382805
 20
-119.4149963931
 10
535.2337436735
 20
-123.9140175763
 10
536.2324817376
 20
-128.6235788881
 10
536.9840654137
 20
-133.5301027531
 10
537.4863294074
 20
-138.6194428376
 10
537.7378196525
 20
-143.8769296759
 10
537.7378196525
 20
-149.2873980498
 10
537.4863294074
 20
-154.8352493445
 10
536.9840654137
 20
-160.5044910926
 10
536.2324817376
 20
-166.2787749993
 10
535.2337436735
 20
-172.1414547351
 10
533.9907382805
 20
-178.075619397
 10
532.507037504
 20
-184.0641680309
 10
530.7869245176
 20
-190.0898324473
 10
528.8353568441
 20
-196.1352350133
 10
526.6579663563
 20
-202.1829494898
 10
524.2610276663
 20
-208.2155344887
 10
521.6514528572
 20
-214.2155973513
 10
518.8367704098
 20
-220.1658397742
 10
515.8250830558
 20
-226.0491125585
 10
512.6250835826
 20
-231.8484369046
 10
509.2460021501
 20
-237.547101746
 10
505.6975694119
 20
-243.1286850391
 10
501.9900270522
 20
-248.5770720155
 10
498.1340592972
 20
-253.8765738072
 10
494.1407876464
 20
-259.01190007
 10
490.0217208237
 20
-263.9682426294
 10
485.7887416061
 20
-268.7313195865
 10
481.4540488723
 20
-273.2873905214
 10
477.030144431
 20
-277.623324934
 10
472.5297803382
 20
-281.7266144064
 10
467.9659351889
 20
-285.5854349583
 10
463.3517667026
 20
-289.1886561687
 10
458.7005794538
 20
-292.5258902221
 10
454.0257823966
 20
-295.5875103462
 10
449.3408553608
 20
-298.3647005714
 10
444.6593055059
 20
-300.849444367
 10
439.9946319242
 20
-303.0345815783
 10
435.3602836585
 20
-304.9138083267
 10
430.7696212598
 20
-306.4817052863
 10
426.2358847655
 20
-307.7337561698
 10
421.7721410157
 20
-308.6663538068
 10
417.3912632384
 20
-309.276799762
 10
413.1058823173
 20
-309.5633446351
 10
408.9283525473
 20
-309.525153076
 10
404.8707226588
 20
-309.1623387638
 10
400.9446857681
 20
-308.4759507137
 10
397.1615688407
 20
-307.4679611082
 10
393.5322721053
 20
-306.1412820222
 10
390.0672637854
 20
-304.4997380453
 10
386.7765379524
 20
-302.5480601945
 10
383.6695776473
 20
-300.2918767849
 10
380.7553390754
 20
-297.7376921357
 10
378.0422305329
 20
-294.8928744002
 10
375.5380702603
 20
-291.7656190603
 10
373.2500811737
 20
-288.3649489253
 10
371.1848592549
 20
-284.7006654601
 10
369.3483577462
 20
-280.7833366154
 10
367.7458766139
 20
-276.6242511999
 10
366.3820309379
 20
-272.235406709
 10
365.2607509117
 20
-267.6294576141
 10
364.3852765745
 20
-262.8196803804
 10
363.7581262003
 20
-257.8199453268
 10
363.3811121036
 20
-252.6446668173
 10
363.2553195659
 20
-247.3087671368
  0
ARC
  5
E4
330
1F
100
AcDbEntity
  8
0
  6
Continuous
 62
     7
370
    25
100
AcDbCircle
 10
592.5440072737
 20
-176.5481679407
 30
0.0
 40
51.36288543985047
100
AcDbArc
 50
33.6277534686
 51
53.3072897728
  0
ARC
  5
E5
330
1F
100
AcDbEntity
  8
0
  6
Continuous
 62
     7
370
    25
100
AcDbCircle
 10
503.8196119013
 20
-330.3988701045
 30
0.0
 40
51.08919902300832
100
AcDbArc
 50
246.6441048196
 51
266.4563500675
  0
ARC
  5
E6
330
1F
100
AcDbEntity
  8
0
  6
Continuous
 62
     7
370
    25
100
AcDbCircle
 10
644.043699405
 20
-217.3053130251
 30
0.0
 40
46.01287823699949
100
AcDbArc
 50
36.3583175342
 51
46.8888659788
  0
ARC
  5
E7
330
1F
100
AcDbEntity
  8
0
  6
Continuous
 62
     7
370
    25
100
AcDbCircle
 10
565.0184999009
 20
-353.9285561987
 30
0.0
 40
46.43560733317891
100
AcDbArc
 50
253.164284191
 51
263.6337511737
  0
LINE
  5
E8
330
1F
100
AcDbEntity
  8
0
  6
Continuous
 62
     7
370
    25
100
AcDbLine
 10
674.444191615
 20
-182.738243048
 30
0.0
 11
674.6683180186
 21
-182.9328148208
 31
0.0
  0
LINE
  5
E9
330
1F
100
AcDbEntity
  8
0
  6
Continuous
 62
     7
370
    25
100
AcDbLine
 10
550.9027117887
 20
-398.1948040664
 30
0.0
 11
550.2011564218
 21
-397.9568106915
 31
0.0
  0
LWPOLYLINE
  5
EA
330
1F
100
AcDbEntity
  8
0
  6
Continuous
 62
     7
370
    25
100
AcDbPolyline
 90
       61
 70
   128
 43
0.0
 10
759.0803818303
 20
-230.735292856
 10
761.53093658
 20
-232.2655132993
 10
764.6298152269
 20
-234.5661739041
 10
767.5358193583
 20
-237.1628433215
 10
770.2407039969
 20
-240.0481564551
 10
772.7368036848
 20
-243.2139330469
 10
775.0170430196
 20
-246.6512050546
 10
777.0749629969
 20
-250.3502227377
 10
778.9047262782
 20
-254.3005033281
 10
780.501148801
 20
-258.4908462418
 10
781.8596997792
 20
-262.909381749
 10
782.9765333128
 20
-267.5435770603
 10
783.8484778515
 20
-272.3803017258
 10
784.473073073
 20
-277.405839806
 10
784.848538273
 20
-282.6059495649
 10
784.9738092435
 20
-287.9658919912
 10
784.848538273
 20
-293.4704692015
 10
784.473073073
 20
-299.1040818529
 10
783.8484778515
 20
-304.8507622259
 10
782.9765333128
 20
-310.694212627
 10
781.8596997792
 20
-316.6178764891
 10
780.501148801
 20
-322.6049615682
 10
778.9047262782
 20
-328.6384946934
 10
777.0749629969
 20
-334.7013750004
 10
775.0170430196
 20
-340.7764165142
 10
772.7368036848
 20
-346.8463968191
 10
770.2407039969
 20
-352.8941087668
 10
767.5358193583
 20
-358.9024152294
 10
764.6298152269
 20
-364.8542855995
 10
761.53093658
 20
-370.7328353325
 10
758.2479604988
 20
-376.5214141566
 10
754.7901961684
 20
-382.2036121561
 10
751.1674427313
 20
-387.7633206046
 10
747.3899734815
 20
-393.1847775913
 10
743.4684884505
 20
-398.4526258116
 10
739.4141117719
 20
-403.551914088
 10
735.2383337303
 20
-408.4682038293
 10
730.9529870535
 20
-413.1875522982
 10
726.5702232048
 20
-417.6965871344
 10
722.1024649676
 20
-421.9825154761
 10
717.562376153
 20
-426.0332022842
 10
712.9628260376
 20
-429.8371604533
 10
708.3168511686
 20
-433.3836032802
 10
703.6376237532
 20
-436.6624809628
 10
698.9384055608
 20
-439.6645011285
 10
694.2325176295
 20
-442.3811524057
 10
689.5332994371
 20
-444.8047340778
 10
684.8540720217
 20
-446.9283773731
 10
680.2080971527
 20
-448.7460629513
 10
675.6085470374
 20
-450.2526323076
 10
671.0684582227
 20
-451.4438204684
 10
666.6006999856
 20
-452.3162559885
 10
662.2179361368
 20
-452.867452582
 10
657.93258946
 20
-453.0958600702
 10
653.7568114184
 20
-453.0008210325
 10
649.7024347398
 20
-452.5826164295
 10
645.7809497088
 20
-451.8424184523
 10
642.0034804591
 20
-450.7823346269
 10
638.3807270219
 20
-449.4053682648
 10
634.9229626916
 20
-447.7154199837
 10
634.09054136
 20
-447.2475051043
  0
LWPOLYLINE
  5
EB
330
1F
100
AcDbEntity
  8
0
  6
Continuous
 62
     1
370
    25
100
AcDbPolyline
 90
       59
 70
   128
 43
0.0
 10
626.8716054395
 20
-138.3629267411
 10
628.7572975887
 20
-140.1736198165
 10
631.579745593
 20
-143.2758857933
 10
634.1927553702
 20
-146.6568387255
 10
636.5897256704
 20
-150.3079456003
 10
638.7645978839
 20
-154.2199768714
 10
640.7118771156
 20
-158.3830551312
 10
642.4266532574
 20
-162.7866611962
 10
643.904585184
 20
-167.419670608
 10
645.1419428993
 20
-172.2703840554
 10
646.1355969997
 20
-177.3265441039
 10
646.8830502847
 20
-182.5753777845
 10
647.3823956091
 20
-188.003631571
 10
647.632389641
 20
-193.5975860257
 10
647.632389641
 20
-199.3431154901
 10
647.3823956091
 20
-205.2257069103
 10
646.8830502847
 20
-211.2304925365
 10
646.1355969997
 20
-217.3423174106
 10
645.1419428993
 20
-223.5457260636
 10
643.904585184
 20
-229.82506232
 10
642.4266532574
 20
-236.1644556129
 10
640.7118771156
 20
-242.5479000692
 10
638.7645978839
 20
-248.9592590738
 10
636.5897256704
 20
-255.3823443534
 10
634.1927553702
 20
-261.8009342292
 10
631.579745593
 20
-268.1988040334
 10
628.7572975887
 20
-274.5597991118
 10
625.7325394433
 20
-280.8678500315
 10
622.5131102729
 20
-287.1070242907
 10
619.1071391511
 20
-293.2615628193
 10
615.5232398399
 20
-299.3159073547
 10
611.7704581067
 20
-305.2547734416
 10
607.8582769924
 20
-311.063159558
 10
603.7965746647
 20
-316.726389697
 10
599.5956191495
 20
-322.2301589941
 10
595.2660156476
 20
-327.5605641408
 10
590.8187012662
 20
-332.7041429286
 10
586.2649134087
 20
-337.64789858
 10
581.6161555306
 20
-342.379343853
 10
576.8841707976
 20
-346.8865284144
 10
572.0809078412
 20
-351.1580646934
 10
567.218506271
 20
-355.1831605792
 10
562.3092453077
 20
-358.951661242
 10
557.3655273201
 20
-362.4540221352
 10
552.3998399585
 20
-365.6814160267
 10
547.4247278371
 20
-368.6256885094
 10
542.4527579609
 20
-371.2794022946
 10
537.4964907492
 20
-373.6358417725
 10
532.5684441452
 20
-375.6890580658
 10
527.6810692501
 20
-377.4338830965
 10
522.8467111392
 20
-378.865879201
 10
518.0775818618
 20
-379.9814520565
 10
513.3857261969
 20
-380.7777852785
 10
508.7830005799
 20
-381.2528404177
 10
504.2810270043
 20
-381.4054565776
 10
499.8911851192
 20
-381.2352089666
 10
495.6245542773
 20
-380.7425579441
 10
491.4919240719
 20
-379.9287273466
 10
487.831296423
 20
-378.9026380505
  0
LWPOLYLINE
  5
EC
330
1F
100
AcDbEntity
  8
0
  6
Continuous
 62
     1
370
    25
100
AcDbPolyline
 90
       26
 70
   128
 43
0.0
 10
461.9679644938
 20
-290.2121639142
 10
462.3445255118
 20
-287.0439039975
 10
463.2199998491
 20
-281.2233256094
 10
464.3412798752
 20
-275.3227741528
 10
465.7051255512
 20
-269.359266962
 10
467.3076066835
 20
-263.3499962134
 10
469.1441081922
 20
-257.3122878604
 10
471.209330111
 20
-251.2635499222
 10
473.4973191976
 20
-245.2212238171
 10
476.0014794703
 20
-239.2027265682
 10
478.7145880128
 20
-233.2254203865
 10
481.6288265847
 20
-227.3065275019
 10
484.7357868898
 20
-221.4631240802
 10
488.0265127227
 20
-215.7120550549
 10
491.4915210427
 20
-210.0698976273
 10
495.1208177781
 20
-204.5529217235
 10
498.9039347055
 20
-199.1770382869
 10
502.8299715962
 20
-193.9577445284
 10
506.8876014847
 20
-188.9100904667
 10
511.0651312546
 20
-184.0486257014
 10
515.3505121757
 20
-179.3873750797
 10
519.731389953
 20
-174.939767217
 10
524.1951337028
 20
-170.7186360206
 10
528.7288701972
 20
-166.7361461681
 10
533.3195325958
 20
-163.0037771416
 10
537.0158796989
 20
-160.2112753438
  0
LWPOLYLINE
  5
ED
330
1F
100
AcDbEntity
  8
0
  6
Continuous
 62
     1
370
    25
100
AcDbPolyline
 90
       53
 70
   128
 43
0.0
 10
635.3114723411
 20
-148.1036617503
 10
636.8288326445
 20
-150.4836757888
 10
639.0031780225
 20
-154.3947488272
 10
640.949983102
 20
-158.5568080223
 10
642.6643377754
 20
-162.9593341904
 10
644.141900917
 20
-167.5912150407
 10
645.3789530677
 20
-172.4407421373
 10
646.3723753605
 20
-177.4956595677
 10
647.1196389846
 20
-182.743212611
 10
647.6188684052
 20
-188.170134816
 10
647.8687992169
 20
-193.7627213822
 10
647.8687992169
 20
-199.506845131
 10
647.6188684052
 20
-205.38799567
 10
647.1196389846
 20
-211.3913158951
 10
646.3723753605
 20
-217.5016411542
 10
645.3789530677
 20
-223.7035395497
 10
644.141900917
 20
-229.9813366579
 10
642.6643377754
 20
-236.3191755992
 10
640.949983102
 20
-242.7010535415
 10
639.0031780225
 20
-249.110846037
 10
636.8288326445
 20
-255.5323648125
 10
634.4324524002
 20
-261.9493790645
 10
631.8200853624
 20
-268.3456854174
 10
628.9983275128
 20
-274.7051261744
 10
625.9743069372
 20
-281.0116319027
 10
622.7556627519
 20
-287.2492822679
 10
619.3505292987
 20
-293.4023090748
 10
615.7675045346
 20
-299.4551753525
 10
612.0156394954
 20
-305.3925936041
 10
608.1044172219
 20
-311.1995562239
 10
604.0437106135
 20
-316.8613963301
 10
599.8437824277
 20
-322.3638181834
 10
595.5152378654
 20
-327.6929245589
 10
591.0690113995
 20
-332.8352426013
 10
586.5163377993
 20
-337.777795305
 10
581.8687178861
 20
-342.5080847811
 10
577.1378895573
 20
-347.014163738
 10
572.3358040785
 20
-351.2846552515
 10
567.4745905225
 20
-355.308761126
 10
562.5665307444
 20
-359.0763371787
 10
557.6240218445
 20
-362.5778419041
 10
552.6595501561
 20
-365.8044488306
 10
547.6856551073
 20
-368.7479943774
 10
542.714902139
 20
-371.4010543263
 10
537.7598466492
 20
-373.7569281335
 10
532.8330064988
 20
-375.8096426345
 10
527.9468275205
 20
-377.5540327926
 10
523.1136508384
 20
-378.9856875601
 10
518.3456885019
 20
-380.1009882795
 10
513.6549813386
 20
-380.8971208469
 10
509.0533831498
 20
-381.3720605016
 10
504.5525132948
 20
-381.5246357001
 10
500.6618428784
 20
-381.3903865716
  0
LWPOLYLINE
  5
EE
330
1F
100
AcDbEntity
  8
0
  6
Continuous
 62
     1
370
    25
100
AcDbPolyline
 90
       52
 70
   128
 43
0.0
 10
681.099034115
 20
-190.0273524492
 10
681.4117057791
 20
-190.454783226
 10
683.6925720483
 20
-193.8929952246
 10
685.7510557397
 20
-197.5930258972
 10
687.5813195148
 20
-201.5443894337
 10
689.1781793112
 20
-205.7358822083
 10
690.5371043426
 20
-210.1556284075
 10
691.6542434409
 20
-214.7910937205
 10
692.526430324
 20
-219.6291416142
 10
693.1511888645
 20
-224.6560607103
 10
693.5267594316
 20
-229.8575944459
 10
693.6520672806
 20
-235.2190041888
 10
693.5267594316
 20
-240.7250912947
 10
693.1511888645
 20
-246.3602495771
 10
692.526430324
 20
-252.1084995301
 10
691.6542434409
 20
-257.9535529643
 10
690.5371043426
 20
-263.8788396255
 10
689.1781793112
 20
-269.8675672693
 10
687.5813195148
 20
-275.9027551208
 10
685.7510557397
 20
-281.9672962317
 10
683.6925720483
 20
-288.0440015855
 10
681.4117057791
 20
-294.1156457243
 10
678.9149212049
 20
-300.1650184587
 10
676.2092937281
 20
-306.1749704934
 10
673.3024940749
 20
-312.1284681793
 10
670.2027672227
 20
-318.0086330559
 10
666.9188902526
 20
-323.7988026839
 10
663.4601776182
 20
-329.4825519387
 10
659.83643373
 20
-335.0437873038
 10
656.0579266142
 20
-340.4667316585
 10
652.1353721068
 20
-345.7360124905
 10
648.0798838051
 20
-350.8367029562
 10
643.9029598961
 20
-355.7543416511
 10
639.6164410101
 20
-360.474981276
 10
635.2324759761
 20
-364.9852509913
 10
630.7634928462
 20
-369.2723548937
 10
626.2221593824
 20
-373.3241556631
 10
621.6213474958
 20
-377.1291525061
 10
616.9741003188
 20
-380.6765670852
 10
612.2935900587
 20
-383.9563435146
 10
607.5930844118
 20
-386.9591860001
 10
602.8859070504
 20
-389.6765816494
 10
598.1854014034
 20
-392.1008274651
 10
593.5048911433
 20
-394.2250531546
 10
588.8576439664
 20
-396.0432359561
 10
584.2568320797
 20
-397.5502234486
 10
579.715498616
 20
-398.7417346894
 10
575.246515486
 20
-399.6144088799
 10
570.8625504521
 20
-400.1657574532
 10
566.5760315661
 20
-400.3942271894
 10
562.3991076571
 20
-400.2991621884
 10
559.8695565424
 20
-400.0778141634
  0
LWPOLYLINE
  5
EF
330
1F
100
AcDbEntity
  8
0
  6
Continuous
 62
     1
370
    25
100
AcDbPolyline
 90
       26
 70
   128
 43
0.0
 10
462.7851128611
 20
-289.6109282919
 10
463.0558536792
 20
-287.396754961
 10
463.9307221555
 20
-281.5802145741
 10
465.051222465
 20
-275.6837588974
 10
466.4141251053
 20
-269.7243885363
 10
468.0154946144
 20
-263.7192880618
 10
469.8507211809
 20
-257.6857682188
 10
471.9145101069
 20
-251.6412279013
 10
474.2009134183
 20
-245.6030933189
 10
476.7033298651
 20
-239.5887784522
 10
479.4145576045
 20
-233.6156181377
 10
482.3267731277
 20
-227.700831563
 10
485.4315786751
 20
-221.8614827272
 10
488.7200233099
 20
-216.114407439
 10
492.1826239911
 20
-210.4761646484
 10
495.809397184
 20
-204.9630242827
 10
499.5898957384
 20
-199.5908668686
 10
503.5132036207
 20
-194.375198741
 10
507.568020207
 20
-189.3310425446
 10
511.7426497469
 20
-184.4729554834
 10
516.0250566811
 20
-179.8149365499
 10
520.4028946169
 20
-175.3704158813
 10
524.8635379392
 20
-171.1522121761
 10
529.394130542
 20
-167.1724863112
 10
533.9816069024
 20
-163.4427109247
 10
536.9038625952
 20
-161.2195779486
  0
LWPOLYLINE
  5
F0
330
1F
100
AcDbEntity
  8
0
  6
Continuous
 62
     1
370
    25
100
AcDbPolyline
 90
       57
 70
   128
 43
0.0
 10
674.6683180186
 20
-182.9328148208
 10
676.4504764345
 20
-184.5803941005
 10
679.1553610731
 20
-187.4657072341
 10
681.651460761
 20
-190.631483826
 10
683.9317000958
 20
-194.0687558336
 10
685.9896200732
 20
-197.7677735167
 10
687.8193833544
 20
-201.7180541071
 10
689.4158058772
 20
-205.9083970208
 10
690.7743568554
 20
-210.326932528
 10
691.891190389
 20
-214.9611278393
 10
692.7631349277
 20
-219.7978525048
 10
693.3877301493
 20
-224.823390585
 10
693.7631953492
 20
-230.0235003439
 10
693.8884663197
 20
-235.3834427703
 10
693.7631953492
 20
-240.8880199805
 10
693.3877301493
 20
-246.5216326319
 10
692.7631349277
 20
-252.2683130049
 10
691.891190389
 20
-258.111763406
 10
690.7743568554
 20
-264.0354272681
 10
689.4158058772
 20
-270.0225123472
 10
687.8193833544
 20
-276.0560454724
 10
685.9896200732
 20
-282.1189257794
 10
683.9317000958
 20
-288.1939672932
 10
681.651460761
 20
-294.2639475981
 10
679.1553610731
 20
-300.3116595458
 10
676.4504764345
 20
-306.3199660084
 10
673.5444723031
 20
-312.2718363785
 10
670.4455936562
 20
-318.1503861115
 10
667.162617575
 20
-323.9389649356
 10
663.7048532447
 20
-329.6211629351
 10
660.0820998075
 20
-335.1808713836
 10
656.3046305578
 20
-340.6023283703
 10
652.3831455267
 20
-345.8701765906
 10
648.3287688481
 20
-350.969464867
 10
644.1529908065
 20
-355.8857546083
 10
639.8676441298
 20
-360.6051030772
 10
635.484880281
 20
-365.1141379134
 10
631.0171220438
 20
-369.4000662551
 10
626.4770332292
 20
-373.4507530632
 10
621.8774831138
 20
-377.2547112323
 10
617.2315082448
 20
-380.8011540592
 10
612.5522808295
 20
-384.0800317418
 10
607.853062637
 20
-387.0820519075
 10
603.1471747058
 20
-389.7987031847
 10
598.4479565133
 20
-392.2222848568
 10
593.7687290979
 20
-394.3459281521
 10
589.1227542289
 20
-396.1636137303
 10
584.5232041136
 20
-397.6701830866
 10
579.9831152989
 20
-398.8613712474
 10
575.5153570618
 20
-399.7338067675
 10
571.132593213
 20
-400.285003361
 10
566.8472465362
 20
-400.5134108492
 10
562.6714684947
 20
-400.4183718115
 10
558.6170918161
 20
-400.0001672085
 10
554.695606785
 20
-399.2599692313
 10
550.9181375353
 20
-398.1998854059
 10
550.9027117887
 20
-398.1948040664
  0
ENDSEC
  0
SECTION
  2
OBJECTS
  0
DICTIONARY
  5
C
330
0
100
AcDbDictionary
281
     1
  3
ACAD_GROUP
350
D
  3
ACAD_LAYOUT
350
1A
  3
ACAD_MLINESTYLE
350
17
  3
ACAD_PLOTSETTINGS
350
19
  3
ACAD_PLOTSTYLENAME
350
E
  3
ACAD_SCALELIST
350
47
  0
DICTIONARY
  5
D
102
{ACAD_REACTORS
330
C
102
}
330
C
100
AcDbDictionary
281
     1
  0
DICTIONARY
  5
1A
102
{ACAD_REACTORS
330
C
102
}
330
C
100
AcDbDictionary
281
     1
  3
Layout1
350
1E
  3
Layout2
350
26
  3
Model
350
22
  0
DICTIONARY
  5
17
102
{ACAD_REACTORS
330
C
102
}
330
C
100
AcDbDictionary
281
     1
  3
Standard
350
18
  0
DICTIONARY
  5
19
102
{ACAD_REACTORS
330
C
102
}
330
C
100
AcDbDictionary
281
     1
  0
ACDBDICTIONARYWDFLT
  5
E
102
{ACAD_REACTORS
330
C
102
}
330
C
100
AcDbDictionary
281
     1
  3
Normal
350
F
100
AcDbDictionaryWithDefault
340
F
  0
DICTIONARY
  5
47
102
{ACAD_REACTORS
330
C
102
}
330
C
100
AcDbDictionary
281
     1
  3
A0
350
48
  3
A1
350
49
  3
A2
350
4A
  3
A3
350
4B
  3
A4
350
4C
  3
A5
350
4D
  3
A6
350
4E
  3
A7
350
4F
  3
A8
350
50
  3
A9
350
51
  3
B0
350
52
  3
B1
350
53
  3
B2
350
54
  3
B3
350
55
  3
B4
350
56
  3
B5
350
57
  3
B6
350
58
  3
B7
350
59
  3
B8
350
5A
  3
B9
350
5B
  3
C0
350
5C
  3
C1
350
5D
  3
C2
350
5E
  3
C3
350
5F
  3
C4
350
60
  3
C5
350
61
  3
C6
350
62
  3
C7
350
63
  3
C8
350
64
  3
C9
350
65
  3
D0
350
66
  3
D1
350
67
  3
D2
350
68
  0
LAYOUT
  5
1E
102
{ACAD_REACTORS
330
1A
102
}
330
1A
100
AcDbPlotSettings
  1

  2
none_device
  4

  6

 40
0.0
 41
0.0
 42
0.0
 43
0.0
 44
0.0
 45
0.0
 46
0.0
 47
0.0
 48
0.0
 49
0.0
140
0.0
141
0.0
142
1.0
143
1.0
 70
   688
 72
     1
 73
     0
 74
     5
  7

 75
    16
147
1.0
148
0.0
149
0.0
100
AcDbLayout
  1
Layout1
 70
     1
 71
     1
 10
0.0
 20
0.0
 11
420.0
 21
297.0
 12
0.0
 22
0.0
 32
0.0
 14
1.0000000000E+20
 24
1.0000000000E+20
 34
1.0000000000E+20
 15
-1.0000000000E+20
 25
-1.0000000000E+20
 35
-1.0000000000E+20
146
0.0
 13
0.0
 23
0.0
 33
0.0
 16
1.0
 26
0.0
 36
0.0
 17
0.0
 27
1.0
 37
0.0
 76
     0
330
1B
  0
LAYOUT
  5
26
102
{ACAD_REACTORS
330
1A
102
}
330
1A
100
AcDbPlotSettings
  1

  2
none_device
  4

  6

 40
0.0
 41
0.0
 42
0.0
 43
0.0
 44
0.0
 45
0.0
 46
0.0
 47
0.0
 48
0.0
 49
0.0
140
0.0
141
0.0
142
1.0
143
1.0
 70
   688
 72
     1
 73
     0
 74
     5
  7

 75
    16
147
1.0
148
0.0
149
0.0
100
AcDbLayout
  1
Layout2
 70
     1
 71
     2
 10
0.0
 20
0.0
 11
0.0
 21
0.0
 12
0.0
 22
0.0
 32
0.0
 14
0.0
 24
0.0
 34
0.0
 15
0.0
 25
0.0
 35
0.0
146
0.0
 13
0.0
 23
0.0
 33
0.0
 16
1.0
 26
0.0
 36
0.0
 17
0.0
 27
1.0
 37
0.0
 76
     0
330
23
  0
LAYOUT
  5
22
102
{ACAD_REACTORS
330
1A
102
}
330
1A
100
AcDbPlotSettings
  1

  2
none_device
  4
Letter_(8.50_x_11.00_Inches)
  6

 40
6.35
 41
6.35
 42
6.35000508
 43
6.35000508
 44
215.9
 45
279.4
 46
0.0
 47
0.0
 48
0.0
 49
0.0
140
0.0
141
0.0
142
1.0
143
1.0
 70
  1712
 72
     1
 73
     0
 74
     0
  7

 75
     0
147
1.0
148
0.0
149
0.0
100
AcDbLayout
  1
Model
 70
     1
 71
     0
 10
0.0
 20
0.0
 11
279.4
 21
215.9
 12
0.0
 22
0.0
 32
0.0
 14
0.0
 24
0.0
 34
0.0
 15
279.4
 25
215.9
 35
0.0
146
0.0
 13
0.0
 23
0.0
 33
0.0
 16
1.0
 26
0.0
 36
0.0
 17
0.0
 27
1.0
 37
0.0
 76
     0
330
1F
331
29
  0
MLINESTYLE
  5
18
102
{ACAD_REACTORS
330
17
102
}
330
17
100
AcDbMlineStyle
  2
Standard
 70
     0
  3

 62
   256
 51
90.0
 52
90.0
 71
     2
 49
0.5
 62
   256
  6
BYLAYER
 49
-0.5
 62
   256
  6
BYLAYER
  0
ACDBPLACEHOLDER
  5
F
102
{ACAD_REACTORS
330
E
102
}
330
E
  0
SCALE
  5
48
102
{ACAD_REACTORS
330
47
102
}
330
47
100
AcDbScale
 70
     0
300
1:1
140
1.0
141
1.0
290
     1
  0
SCALE
  5
49
102
{ACAD_REACTORS
330
47
102
}
330
47
100
AcDbScale
 70
     0
300
1:2
140
1.0
141
2.0
290
     0
  0
SCALE
  5
4A
102
{ACAD_REACTORS
330
47
102
}
330
47
100
AcDbScale
 70
     0
300
1:4
140
1.0
141
4.0
290
     0
  0
SCALE
  5
4B
102
{ACAD_REACTORS
330
47
102
}
330
47
100
AcDbScale
 70
     0
300
1:5
140
1.0
141
5.0
290
     0
  0
SCALE
  5
4C
102
{ACAD_REACTORS
330
47
102
}
330
47
100
AcDbScale
 70
     0
300
1:8
140
1.0
141
8.0
290
     0
  0
SCALE
  5
4D
102
{ACAD_REACTORS
330
47
102
}
330
47
100
AcDbScale
 70
     0
300
1:10
140
1.0
141
10.0
290
     0
  0
SCALE
  5
4E
102
{ACAD_REACTORS
330
47
102
}
330
47
100
AcDbScale
 70
     0
300
1:16
140
1.0
141
16.0
290
     0
  0
SCALE
  5
4F
102
{ACAD_REACTORS
330
47
102
}
330
47
100
AcDbScale
 70
     0
300
1:20
140
1.0
141
20.0
290
     0
  0
SCALE
  5
50
102
{ACAD_REACTORS
330
47
102
}
330
47
100
AcDbScale
 70
     0
300
1:30
140
1.0
141
30.0
290
     0
  0
SCALE
  5
51
102
{ACAD_REACTORS
330
47
102
}
330
47
100
AcDbScale
 70
     0
300
1:40
140
1.0
141
40.0
290
     0
  0
SCALE
  5
52
102
{ACAD_REACTORS
330
47
102
}
330
47
100
AcDbScale
 70
     0
300
1:50
140
1.0
141
50.0
290
     0
  0
SCALE
  5
53
102
{ACAD_REACTORS
330
47
102
}
330
47
100
AcDbScale
 70
     0
300
1:100
140
1.0
141
100.0
290
     0
  0
SCALE
  5
54
102
{ACAD_REACTORS
330
47
102
}
330
47
100
AcDbScale
 70
     0
300
2:1
140
2.0
141
1.0
290
     0
  0
SCALE
  5
55
102
{ACAD_REACTORS
330
47
102
}
330
47
100
AcDbScale
 70
     0
300
4:1
140
4.0
141
1.0
290
     0
  0
SCALE
  5
56
102
{ACAD_REACTORS
330
47
102
}
330
47
100
AcDbScale
 70
     0
300
8:1
140
8.0
141
1.0
290
     0
  0
SCALE
  5
57
102
{ACAD_REACTORS
330
47
102
}
330
47
100
AcDbScale
 70
     0
300
10:1
140
10.0
141
1.0
290
     0
  0
SCALE
  5
58
102
{ACAD_REACTORS
330
47
102
}
330
47
100
AcDbScale
 70
     0
300
100:1
140
100.0
141
1.0
290
     0
  0
SCALE
  5
59
102
{ACAD_REACTORS
330
47
102
}
330
47
100
AcDbScale
 70
     0
300
1/128" = 1'-0"
140
0.0078125
141
12.0
290
     0
  0
SCALE
  5
5A
102
{ACAD_REACTORS
330
47
102
}
330
47
100
AcDbScale
 70
     0
300
1/64" = 1'-0"
140
0.015625
141
12.0
290
     0
  0
SCALE
  5
5B
102
{ACAD_REACTORS
330
47
102
}
330
47
100
AcDbScale
 70
     0
300
1/32" = 1'-0"
140
0.03125
141
12.0
290
     0
  0
SCALE
  5
5C
102
{ACAD_REACTORS
330
47
102
}
330
47
100
AcDbScale
 70
     0
300
1/16" = 1'-0"
140
0.0625
141
12.0
290
     0
  0
SCALE
  5
5D
102
{ACAD_REACTORS
330
47
102
}
330
47
100
AcDbScale
 70
     0
300
3/32" = 1'-0"
140
0.09375
141
12.0
290
     0
  0
SCALE
  5
5E
102
{ACAD_REACTORS
330
47
102
}
330
47
100
AcDbScale
 70
     0
300
1/8" = 1'-0"
140
0.125
141
12.0
290
     0
  0
SCALE
  5
5F
102
{ACAD_REACTORS
330
47
102
}
330
47
100
AcDbScale
 70
     0
300
3/16" = 1'-0"
140
0.1875
141
12.0
290
     0
  0
SCALE
  5
60
102
{ACAD_REACTORS
330
47
102
}
330
47
100
AcDbScale
 70
     0
300
1/4" = 1'-0"
140
0.25
141
12.0
290
     0
  0
SCALE
  5
61
102
{ACAD_REACTORS
330
47
102
}
330
47
100
AcDbScale
 70
     0
300
3/8" = 1'-0"
140
0.375
141
12.0
290
     0
  0
SCALE
  5
62
102
{ACAD_REACTORS
330
47
102
}
330
47
100
AcDbScale
 70
     0
300
1/2" = 1'-0"
140
0.5
141
12.0
290
     0
  0
SCALE
  5
63
102
{ACAD_REACTORS
330
47
102
}
330
47
100
AcDbScale
 70
     0
300
3/4" = 1'-0"
140
0.75
141
12.0
290
     0
  0
SCALE
  5
64
102
{ACAD_REACTORS
330
47
102
}
330
47
100
AcDbScale
 70
     0
300
1" = 1'-0"
140
1.0
141
12.0
290
     0
  0
SCALE
  5
65
102
{ACAD_REACTORS
330
47
102
}
330
47
100
AcDbScale
 70
     0
300
1-1/2" = 1'-0"
140
1.5
141
12.0
290
     0
  0
SCALE
  5
66
102
{ACAD_REACTORS
330
47
102
}
330
47
100
AcDbScale
 70
     0
300
3" = 1'-0"
140
3.0
141
12.0
290
     0
  0
SCALE
  5
67
102
{ACAD_REACTORS
330
47
102
}
330
47
100
AcDbScale
 70
     0
300
6" = 1'-0"
140
6.0
141
12.0
290
     0
  0
SCALE
  5
68
102
{ACAD_REACTORS
330
47
102
}
330
47
100
AcDbScale
 70
     0
300
1'-0" = 1'-0"
140
12.0
141
12.0
290
     0
  0
ENDSEC
  0
EOF
